Estudo de casos

Disponível somente no TrabalhosFeitos
  • Páginas : 2 (397 palavras )
  • Download(s) : 0
  • Publicado : 7 de maio de 2012
Ler documento completo
Amostra do texto
Jorge e Mateus

Volta Pra Minha Vida

(solo) E F# G#m
E F# G#m F#

E|----6h7-6--------------4/7-4-7/11-7--9-11------|
B|--------------4--7/9-7-------------------------|G|----------4-6----------------------------------|
D|-----------------------------------------------|
A|-----------------------------------------------|
E|-----------------------------------------------|E|----6h7-6--------------4/7-4-7/11--------------|
B|--------------4--7/9-7------------9--9-7-------|
G|----------4-6----------------------------------|D|-----------------------------------------------|
A|-----------------------------------------------|
E|-----------------------------------------------|

B
Quantas vezes a gente ama
G#m
E percebe que só se engana
EF#
Mas pela primeira vez, eu não me enganei
G#m
Hoje tudo parece um sonho
E C#m
Mais você teve medo de acreditar
E F#
E seenganar outra vez
C#m G#m
Esse medo te levou embora
E B
Mais não há nada pra você lá fora
C#m G#m
Esse amor não vai te deixarE F#
E você vai ver, vai acreditar...

página 1
(refrão 2x)
B F# C#m
Um amor de verdade não tem despedida
E B
Volta praminha vida
F# C#m
Deixa esse medo e venha o que vier
E F# B
Eu não vou desgrudar de você.

(solo 2x) E F# G#mE|----6h7-6--------------4/7-4-7/11-7--9-11------|
B|--------------4--7/9-7-------------------------|
G|----------4-6----------------------------------|
D|-----------------------------------------------|A|-----------------------------------------------|
E|-----------------------------------------------|

E|----6h7-6--------------4/7-4-7/11-7-7-7-7-7----|
B|--------------4--7/9-7-------------------------|...
tracking img