Degussa

Disponível somente no TrabalhosFeitos
  • Páginas : 2 (325 palavras )
  • Download(s) : 0
  • Publicado : 2 de outubro de 2012
Ler documento completo
Amostra do texto
Intro:
0:00
|---------------------------------|
|---------------------------------|
|---------------------------------|
|-6-6-6--6-6-6--8-8-8--10-10-10-8-| x2

Verse:
0:11 no sir...|-------------------------------|
|-------------------------------|
|-------------------------------|
|-6-6-6--6-6-6--8-8-8--10-10-10-| x2

0:22 and why do we like to hurt so much|---------------------------------|
|---------------------------------|
|---------------------------------|
|-6-6-6--6-6-6--8-8-8--10-10-10-8-|

0:28 i can't decide...|----------------------------------|
|----------------------------------|
|----------------------------------|
|-6-6-6--6-6-6--8-8-8--10-10-10----| x2

Prechorus
0:39
|------|
|------|
|------|
|-1~~--|

Chorus:0:42 that's what you get...
|---------------------------------------------------------------------|
|---------------------------------------------------------------------||-------------------33333333-11111111-------------------1111111111111-|
|-66666666-11111111------------------66666666-11111111----------------|

0:57 i drowned out all my....|-----------------------------------|
|-----------------------------------|
|-33333333-11111111-3333333-1111111-|
|-----------------------------------|

1:04 and that's what you get...
|---------------------------------||---------------------------------|
|-------------------1111111111111-|
|-66666666-11111111---------------|

Into again:
1:17
|---------------------------------||---------------------------------|
|---------------------------------|
|-6-6-6--6-6-6--8-8-8--10-10-10-8-|

Verse:
1:23 i wonder...
|---------------------------------------------------------------||---------------------------------------------------------------|
|---------------------------------------------------------------|
|-6-6-6--6-6-6--8-8-8--10-10-10/13/6-6-6--6-6-6--8-8-8--10-10-10|...
tracking img