Text

Disponível somente no TrabalhosFeitos
  • Páginas : 5 (1026 palavras )
  • Download(s) : 0
  • Publicado : 6 de maio de 2012
Ler documento completo
Amostra do texto
-------------------------------------------------
Como ler tablaturas
O conceito básico da tablatura é apresentar no papel um conjunto de linhas que representam as cordas do instrumento. Sendo assim para uma guitarra ou violão comum você terá seis linhas, para um baixo de quatro cordas terá quatro linhas, para um baixo de cinco cordas cinco linhas, para uma guitarra de sete cordas sete linhase assim por diante. Para o seu estudo usaremos seis linhas.
Uma tablatura vazia de guitarra ou violão apresenta-se da seguinte forma:
Como se estivesse nesta posição
Como se estivesse nesta posição
E------------------------------------------------------
B------------------------------------------------------
G------------------------------------------------------D------------------------------------------------------
A------------------------------------------------------
E------------------------------------------------------
A linha de baixo representa a corda mais grossa (mi mais grossa) e a linha de cima representa a corda mais fina (mi mais fina). De cima para baixo as linhas representam as cordas mi, si, sol, re, la, mi.
Uma tablatura vazia de baixo (quatrocordas) apresenta-se da seguinte forma:
Como se estivesse nesta posição
Como se estivesse nesta posição
G------------------------------------------------------
D------------------------------------------------------
A------------------------------------------------------
E------------------------------------------------------
A linha de baixo representa a corda mais grossa (mi) e a linha decima representa a corda mais fina (sol). De cima para baixo as linhas representam as cordas sol, ré, lá, mi.
Números escritos nas linhas indicam em que traste as respectivas cordas devem ser apertadas ao serem feridas. Número 0 indica corda solta. As notas devem ser lidas da esquerda para a direita.
E------------------------------------------------------B------------------------------------------------------
G------------------------------------------------------
D------------------------------------------------------
A------------------------------------------------------
E---0--1--2--3-----------------------------------------
O exemplo acima indica as seguinte notas (uma de cada vez) na ordem:
- corda mais grossa deve ser tocada solta (0)
- depois a mesma corda deve sertocada no primeiro traste (1)
- depois a mesma corda deve ser tocada no segundo traste (2)
- depois a mesma corda deve ser tocada no terceiro traste (3)
E------------------------------------------------------
B------------------------------------------------------
G---------0--------1--0--------------------------------
D---0--3-----0--3--------------------------------------A------------------------------------------------------
E------------------------------------------------------
O exemplo acima é o início do riff de Smoke On The Water da banda Deep Purple e deve ser tocado da seguinte forma.
- terceira corda (re) tocada solta (0)
- terceira corda (re) tocada no terceiro traste (3)
- quarta corda (sol) tocada solta (0)
- terceira corda (re) tocada solta (0)
- terceiracorda (re) tocada no terceiro traste (3)
- quarta corda (sol) tocada no primeiro traste (1)
- quarta corda (sol) tocada solta (0)
Nos exemplos acima as notas são tocadas uma de cada vez. Quando duas ou mais notas (obviamente em duas ou mais cordas) devem ser tocadas de uma só vez (formando um acorde) a indicação é conforme abaixo:
E----3--------------------------------------------------B----3--------------------------------------------------
G----4--------------------------------------------------
D----5--------------------------------------------------
A----5--------------------------------------------------
E----3--------------------------------------------------
Note que este é um acorde sol maior. Note que estando na mesma coluna as notas devem ser tocadas todas de uma...
tracking img