Musicas

Disponível somente no TrabalhosFeitos
  • Páginas : 12 (2824 palavras )
  • Download(s) : 0
  • Publicado : 28 de fevereiro de 2013
Ler documento completo
Amostra do texto
Civil War – Guns N’ Roses

Tom: G
Afinação: Eb Ab Db Gb Bb Eb

Intro: Em G Em G D/F#

"What we've got here is failure...

Em G

E|----------------------------------|----------------------------------|
B|----------------------------------|----------------------------------|
G|---------0----------------0-------|---------0---------------0--------|D|-----2-----2---2------2-----2-----|-----0-----0---0-----0-----0------|
A|---2---2-----2------2---2-----0h2-|---2---2-----2-----2---2-----0h2--|
E|-0---------------0----------------|-3---------------3----------------|

to communicated. Some men you just can't reach...

Em G D/F#E|----------------------------------|-----------------|-----------------|
B|----------------------------------|-----------------|-----------------|
G|---------0---------------0--------|---------0-------|---------2-0---0-|
D|-----2-----2---2-----2-----2------|-----0-----2-----|-----0-------2---|
A|---2---2-----2-----2---2-----0h2--|---2---2-----0h2-|---0---0---------|E|-0---------------0----------------|-3---------------|-2---------------|

So,you get what we had here last week Which is the way he wants it! Well, he gets it!

Em G
E|----------------------------------|----------------------------------|
B|----------------------------------|----------------------------------|
G|---------0----------------0-------|---------0---------------0--------|D|-----2-----2---2------2-----2-----|-----0-----0---0-----0-----0------|
A|---2---2-----2------2---2-----0h2-|---2---2-----2-----2---2-----0h2--|
E|-0---------------0----------------|-3---------------3----------------|

N' I don't like it anymore than you, men."

Solo:
E|--12~~------------10~~-------------------| (este é o solo que
B|---------------------------10--11---12~~-| entra no começodo dedilhado
G|-----------------------------------------| de cima)
D|-----------------------------------------|

Em G D/F#
E|----------------------------------|-----------------|-----------------|
B|----------------------------------|-----------------|-----------------|G|---------0---------------0--------|---------0-------|---------2-0---0-|
D|-----2-----2---2-----2-----2------|-----2-----2-----|-----0-------2---|
A|---2---2-----2-----2---2-----0h2--|---2---2-----0h2-|---0---0---------|
E|-0--------------0-----------------|-3---------------|-2---------------|

Solo:
E|--12~~------------10~~---------------------------------------------------|B|----------------------------10-11---12~~-------------10~-----------------|
G|-------------------------------------------------------------12~-11------|
D|----------------------------------------------------------------------9~-|

(entra junto com o baixo)
Em G
E|----------------------------------|----------------------------------|
B|----------------------------------|----------------------------------|G|---------0----------------0-------|---------0---------------0--------|
D|-----2-----2---2------2-----2-----|-----0-----0---0-----0-----0------|
A|---2---2-----2------2---2-----0h2-|---2---2-----2-----2---2-----0h2--|
E|-0---------------0----------------|-3---------------3----------------|
Look at your young men fighting Look at your women crying


Em GD/F#
E|----------------------------------|-----------------|-----------------|
B|----------------------------------|-----------------|-----------------|
G|---------0---------------0--------|---------0-------|---------2-0---0-|
D|-----2-----2---2-----2-----2------|-----0-----2-----|-----0-------2---|
A|---2---2-----2-----2---2-----0h2--|---2---2-----0h2-|---0---0---------|...
tracking img