Liga jovens adoradores

Disponível somente no TrabalhosFeitos
  • Páginas : 3 (555 palavras )
  • Download(s) : 0
  • Publicado : 27 de novembro de 2012
Ler documento completo
Amostra do texto
Safe And Sound
Taylor Swift
Taylor Swift

Tom: C
Capotraste na 7ª casa

Intro:
Dm
E|-------1p0-----|
B|-------3-------|
G|-----2---------|
D|--0---------0--|
A|---------------|E|---------------|

Am
E|----------|
B|-------1--|
G|-------2--|
D|-----2----|
A|--0-------|
E|----------|

F7+
E|----------------|
B|----------------|
G|--0h2--2--2--0--|D|--3-------3-----|
A|----------------|
E|----------------|

C
E|-------------|
B|-------------|
G|----------0--|
D|--0h2--2-----|
A|--3----------|
E|-------------|

C/B
E|-------------|B|----------1--|
G|-------0-----|
D|-------------|
A|--0h2--------|
E|-------------|

Dm
E|-------1p0-----|
B|-------3-------|
G|-----2---------|
D|--0---------0--|
A|---------------|E|---------------|

Am
E|----------|
B|-------1--|
G|-------2--|
D|-----2----|
A|--0-------|
E|----------|

C
E|-----------------|
B|--------1--------|
G|--2-----------0--|
D|--3--3-----3-----|A|-----------------|
E|-----------------|

C
E|-----|
B|--1--|
G|-----|
D|-----|
A|--3--|
E|-----|

Verso:

E|--0h1-------1p0-------|
B|--3---------3---------|G|---------2---------0--|
D|-------0---------0----|
A|----------------------|
E|----------------------|

E|----------0-----|
B|--0h1-----1-----|
G|----------------|
D|-------2-----2--|
A|--0-------------|E|----------------|

F7+
E|----------------|
B|----------------|
G|--0h2--2--2--0--|
D|--3-------3-----|
A|----------------|
E|----------------|

C
E|-------------|
B|-------------|G|----------0--|
D|--0h2--2-----|
A|--3----------|
E|-------------|

C/B
E|-------------|
B|----------1--|
G|-------0-----|
D|-------------|
A|--0h2--------|
E|-------------|

DmE|-------1p0-----|
B|-------3-------|
G|-----2---------|
D|--0---------0--|
A|---------------|
E|---------------|

Am
E|----------|
B|-------1--|
G|-------2--|
D|-----2----|
A|--0-------|...
tracking img