Sultans of swing

Disponível somente no TrabalhosFeitos
  • Páginas : 8 (1880 palavras )
  • Download(s) : 0
  • Publicado : 18 de julho de 2012
Ler documento completo
Amostra do texto
Dire Straits - Sultans of Swing

Tom: F
Intro: Dm C Dm
Riff 1:
Dm Dm
E|----------------|-----------------|------5--8-5----|---------------|
B|----------------|-----------6-----|----6--------6--|--5h6p5--------|
G|-----5--5--57--|-------7------7--|--7-------------|--------7------|
D|---7--7--7------|---57---7-------|----------------|---------------|A|----------------|-----------------|----------------|---------------|
E|----------------|-----------------|----------------|---------------|

Dm
you get a shiver in the dark
C Bb A
it's raining in the park but meantime
Dm C Bb A
south of the river you stop and you hold everything

F C
aband is blowing Dixie double four time
Bb Dm Bb C
you feel alright when you hear that music ring

Dm C Bb A
you step inside but you don't see too many faces
Dm C Bb A
coming in out of the rain to (you) hear the jazz go down

F C
too muchcompetition too many other places
Bb Dm
but not too many horns can make that sound

Bb C
way on downsouth
Bb C Dm Dm Bb F C Dm Bb F C
way on downsouth London Town

Dm C Bb A
you check out Guitar George he knows all the chords
Dm CBb A
mind he's (his) strictly rhythm he doesn't want to make it cry or sing

F C
and an old guitar is all he can afford
Bb Dm Bb C
when he gets up under the lights to play his thing

Dm C Bb A
(and) harry doesnb't mind if he doesn't make the scene
Dm CBb A
he('s) got a daytime job he's doing al(l)right

F C
he can play honky tone just like anything
Bb Dm
saving it up for friday night

Bb C
with the sultans
Bb C Dm Dm Bb F C Dm Bb F C
with the sultans of swing

Dm C BbA
and a crowd of young boys they're fooling around in the corner
Dm C Bb A
drunk and dressed in their best brown baggies and their platform soles

F C
they don't give a damn about ('bout) any trumpet playing band
Bb Dm
it ain't what they call rock and roll
Bb C
and the sultans
BbC Dm Dm Bb F C Dm Bb F C
and the sultans played creole

Dm C Bb A
and then the man he steps right up to the microphone
Dm C Bb A (A7)
and says at last just as the time bell rings
F C
thank you goodnight now it's time to go home
BbDm
and he makes it fast with one more thing
Bb C
we are the sultans
Bb C Dm Dm Bb F C Dm Bb F C
we are the sultans of swing

Solo 4x: Dm Bb F C
Verso:
Dm C Bb A
E|----|--5--|--3--1--|--5--|----------------------------|
B|----|--6--|--5--3--|--5--|----------------------------|G|----|--7--|--5--3--|--6--|-------------------------9~~|
D|^^--|--7--|--5--3--|--7--|--9b(11)--9b(11)b(9)--7-----|
A|----|--5--|--3--1--|--7--|----------------------------|
E|----|--5--|--3--1--|--5--|----------------------------|
C Bb F F
E|---|--3--1--|------------------------|------------|--1--|--1--|
B|---|--5--3--|----10------10------10^^^^^------10--|--1--|--1--|...
tracking img