Afterlife tablatura

Disponível somente no TrabalhosFeitos
  • Páginas : 10 (2298 palavras )
  • Download(s) : 0
  • Publicado : 12 de julho de 2012
Ler documento completo
Amostra do texto
AFTERLIFE
Tom: D

Intro 2x: D5 Bb5 G5 D#5
(Guitarra 1)

E|---------------------------------------------------
B|-5-6/13-13~--6-5-6-5-6/15-15~-6-5-6/17-17-17~------
G|---------------------------------------------------D|---------------------------------------------------
A|---------------------------------------------------
D|---------------------------------------------------



E|---------------------------------------------------
B|-15-17b18-17-18b20---------------------------------G|---------------------------------------------------
D|---------------------------------------------------
A|---------------------------------------------------
D|---------------------------------------------------



E|-12-13-12-10-----12-13-12-10-----12-13-12-10-------B|-------------10--------------10--------------------
G|---------------------------------------------------
D|---------------------------------------------------
A|---------------------------------------------------
D|---------------------------------------------------E|-12-13-12-10-----12-13-12-10-----12-13-12-10-------
B|-------------11--------------11--------------------
G|---------------------------------------------------
D|---------------------------------------------------
A|---------------------------------------------------D|---------------------------------------------------



E|-17-18-17-15----17-18-17-15----17-18-17-15---------
B|-------------15-------------15-------------15------
G|---------------------------------------------------
D|---------------------------------------------------A|---------------------------------------------------
D|---------------------------------------------------



E|-17-18-17-15----17-18-17-15----17b18~--------------
B|-------------16-------------16---------------------
G|---------------------------------------------------D|---------------------------------------------------
A|---------------------------------------------------
D|---------------------------------------------------


(Guitarra 2)

E|---------------------------------------------------B|-8-10/17-17~--10-8-10-8-10/18-18~-10-8-10/20-20~---
G|---------------------------------------------------
D|---------------------------------------------------
A|---------------------------------------------------
D|---------------------------------------------------E|---------------------------------------------------
B|-18-20b22-20-22b23~--------------------------------
G|---------------------------------------------------
D|---------------------------------------------------
A|---------------------------------------------------
D|---------------------------------------------------...
tracking img