5S amo noite e dia

Disponível somente no TrabalhosFeitos
  • Páginas : 2 (487 palavras )
  • Download(s) : 0
  • Publicado : 16 de agosto de 2011
Ler documento completo
Amostra do texto
João Bosco e Vinicius - Amo Noite e Dia

Tom: E

Intro:

C#m A9 E B4E|-0---0---0---0----0---0----0---0----------|
B|-5-----5-0-----0--0---0-0--0-----0--------|
G|-6-6-----2-2------1-----1--4-4---4--------|D|-6-6-----2-2------2-2------4-4------------|
A|-4-4-----0-0------2-2------2-2------------|
E|------------------0-0---------------------|Solo da intro:

E|---0-----0-----0---0-----0----------------|
B|-5---5-5---5-5---5---5-5---5-52----------|G|------------------------------------------|
D|------------------------------------------|
A|------------------------------------------|E|------------------------------------------|


E|---0-----0---------0-----0-------0-----0--|
B|-2---2-2---2-2/5-5---5-5---5-5/9---9-9----|G|------------------------------------------|
D|------------------------------------------|
A|------------------------------------------|E|------------------------------------------|


E|---------0-----0--------------------------|
B|-9-97-7---7-7---7-7----------------------|G|------------------------------------------|
D|------------------------------------------|
A|------------------------------------------|E|------------------------------------------|


C#m A9
Tem um pedaço do meu peito bem colado ao teu...
tracking img