Qual celular se parece mais com o iphone?

Disponível somente no TrabalhosFeitos
  • Páginas : 14 (3321 palavras )
  • Download(s) : 0
  • Publicado : 19 de junho de 2012
Ler documento completo
Amostra do texto
Espelho

Jorge e Mateus


Tom: C
Capotraste na 1ª casa
(capo 1ª casa)

(intro)

C G Am Dm F G
E|-1-1--4--1-1------2-2--2--4---------------|
B|-2-2--4--2---4-2~-4-4--2--4---------------|
G|-1-1--1--3--------3-3--3--1-3-4-5---------|
D|-3-3--1--3--------1-1--4--1---------------|
A|-4-4--3--1-------------4--3---------------|E|------4----------------2--4---------------|


(primeira parte)
C G Am F
Baby, as palavras estão mudas
C G
As conversas tão vazias
Am F
As explicações são vagas

(segunda parte)
Dm F
Só eu sei como eu queria falar do meu amor
G Dm
Abertamente sim, ir até o fim
FG
Só eu conheço a dor de não acreditar
F
Que mereço ser feliz

C G
Como num espelho, te olhando vejo
Am F
O meu próprio medo, minha indecisão
C G
Mesmo te amando não estou seguro
Am F
Será que é verdade ou uma ilusão? (x2)

(repete primeira e segunda partes e o refrão)
C GAm F
Baby, as palavras estão mudas
C G
As conversas tão vazias
Am F
As explicações são vagas

(segunda parte)
Dm F
Só eu sei como eu queria falar do meu amor
G Dm
Abertamente sim, ir até o fim
F G
Só eu conheço a dor de não acreditar
F
Quemereço ser feliz

C G
Como num espelho, te olhando vejo
Am F
O meu próprio medo, minha indecisão
C G
Mesmo te amando não estou seguro
Am F
Será que é verdade ou uma ilusão? (x2)

F Dm F
Seria tao bom só eu e você
G
Mas te faço sofrer
E é sem querer
Dm
Eu fujo da dorF G
Eu tenho pavor da solidão
F
Me perdoa coração

(refrão 2x)

(final)
C G Am
E|-1-1-1-1--4--1-----------|
B|-2-2-2-2--4--2-----------|
G|-1-1-1-1--1--3-----------|
D|-3-3-3-3--1--3-----------|
A|-4-4-4-4--3--1-----------|
E|----------4--------------|
------------------------------------------------------------------------------

Fernando e SorocabaPaga Pau



(monte o C# na primeira casa, toque e arraste até o D na segunda casa)

E|-1/2-x-1/2-2-x-x-|
B|-2/3-x-2/3-3-x-x-|
G|-1/2-x-1/2-2-x-x-|
D|-0-----0---0-----|
A|-----------------|
E|-----------------|

(refrão)
C# D A
Você diz que não me ama,
Bm
Você diz que não me quer
G
Mas ficar pagando pau... hammmC# D
Qual é que é?

A
Todo dia seu teatro é
Bm
Exatamente igual,
G
Você finge que me odeia
D
Mas no fundo Paga pau!

(solo 2x) D A Bm G D A Bm G

E|--------5--3--2----------------------------------|
B|--2--3----------3--------5--3--2-----------------|G|-------------------1/2-------------4------2-2h4--|
D|-------------------------------------2h4---------|
A|-------------------------------------------------|
E|-------------------------------------------------|

página 1
D A
Ela é atriz, ela faz cena,
Bm
Ela mete uma pressão
G
Se joga na minha frente... hammm
D
Não engana não!

D AFeito cobra mal matada,
Bm
Ela rebola, eu passo mal,
G
Com o nariz empinado...
D
Ela é a tal!

D A
Se eu mando um xaveco,
Bm
Ela finge não ouvir,
G
Mas se eu grito: “Olha a bruxa!”
D
Vem discutir

D A
Sua psicologia
Bm
Tá um...
tracking img