Ioseandroid

Disponível somente no TrabalhosFeitos
  • Páginas : 2 (376 palavras )
  • Download(s) : 0
  • Publicado : 7 de janeiro de 2013
Ler documento completo
Amostra do texto
Intro: Dm

Parte 1 4x:
E|-----------------------------|
B|-----------------------------|
G|-----5-7---5-5-5--5/7--------|
D|-----5-7---5-5-5--5/7--------|A|-----3-5---3-3-3--3/5--------|
E|-----------------------------|

Parte 2 3x:
E|-----------------------------|
B|-----------------------------|
G|---------5-----5-x-3-x-2-----|
D|-------7--7------------------|A|----/5-----------------------|
E|-----------------------------|

E|-----------------------------|
B|----------------6------------|
G|---------5-----5-------------|D|-------7---------------------|
A|----/5-----------------------|
E|---------------6-------------|


Dm7 Bb9 Dm7 Bb9 Dm7 Bb9
Deus meu. Pai meu. Amor meu.
Dm7 Bb9
Tudo, razão de tudo
Dm7 Bb9 Dm7 Bb9Dm7
Deus meu. Ar meu. Farol
Bb9 Dm7
O farol que eu preciso
Bb9
Como eu preciso...

(passagem - Eu preciso te sentir todo dia)

E|-------------------|B|-------------6-----|
G|--------5---5------|
D|------7------------|
A|---/5--------------|
E|------------6------|


Dm C G
Eu preciso Te sentir todo dia
DmC G
E olhar pra Tua luz pra não me perder
Dm C G
Meu Senhor, Tu és a minha alegria
Bb9
Eu preciso...
Bb9
Deus da minha vida
C9Dm7
Fica comigo
Bb9
Sou a sua casa
C9 Dm7
Mora em mim
Bb9 C9 Dm7
Deixa eu Te dizer o que eu preciso, Pai
Bb9
Eu preciso do Senhor...Bb9 C9 Dm7
Lalalalala

(Repete Tudo)
Solo:
E|---------------------------------------------------------------------------------------------------------|B|-/13-15-13---------------------------------------------------------------------10-10-X-10-10-X-12-12-12b-|
G|----------12-10------------10---10-----------------------10-9-10-10/12---10/12---------------------------|...
tracking img