Da a doidera da parada loka

Disponível somente no TrabalhosFeitos
  • Páginas : 5 (1083 palavras )
  • Download(s) : 0
  • Publicado : 26 de maio de 2012
Ler documento completo
Amostra do texto
Intro 2x: C Am A9 Am C

C Am A9 Am C Am A9 Am
Nunca vi ninguem viver tão feliz
F G C G7
Como eu no sertão
C Am A9 Am C Am A9 Am
Perto de uma mata e de um ribeirão
F G C C7
Deus e eu no sertão
Dm G7 C Am
Casa simplisinha rede pra dormir
DmG Am/G (2x pausa) C Am A9 Am C Am A9 Am
De noite o show no céu deito pra assistir
F G7 C G7
Deus e eu no sertão

E|-4--------------|
B|-4--------------|
G|-4---0--9-9-----|
D|-4--0-9-11-11---|
A|-4--------------|
E|-4--------------|


C Am A9 Am C Am A9 Am
Das horas não sei mas vejo o clarão
F GC G7
Lá vou eu cuidar do chão
C Am A9 Am C Am A9 Am
Trabalho cantando a terra é a inspiração
F G7 C C7
Deus e eu no sertão
Dm G7 C Am
Não há solidão tem festa lá na vila
Dm G F G C
Depois da missa vou ver minha menina
Dm G7 CAm
De volta pra casa queima lenha no fogão
Dm G7 Am/G (2x pausa) C Am A9 Am C Am
E junto ao som da mata vou eu e um violão
F G7 C Am A9 Am F G7 C Am A9 Am
Deus e eu no sertão Deus e eu no sertão
C Am A9 Am C Am A9 Am
Hunrrum hummm hum, rum...










AmC
Percebo que o tempo já não passa
G Am (riff 1)
Você diz que não tem graça amar assim
Am C
Foi tudo tão bonito, mas voou pro infinito
G Am
Parecido com borboletas de um jardim

(riff 2) Dm F
Agora você volta
C G
E balança o que eu sentia por outro alguém(riff 3) Dm F
Dividido entre dois mundos
G Am
Sei que estou amando mas ainda não sei quem

Refrão:
F C
Não sei dizer o que mudou
G Am
Mas nada está igual
F C G Am
Numa noite estranha a gente se estranha e fica mal
F C GAm
Você tenta provar que tudo em nós morreu
F C
Borboletas sempre voltam
G Am
E o seu jardim sou eu.

Solo
Am
E|---12-12-12--13-13-13--12-12-12-12-12-12--13-13-13-13---|
B|---13-13-13--13-13-13--13-13-13-13-13-13--13-13-13-13---|
G|--------------------------------------------------------|D|--------------------------------------------------------|
A|--------------------------------------------------------|
E|--------------------------------------------------------|
C
E|-12-12-12--13-13-13--12-12-12-12-12-12--13-13-13-13---|
B|-13-13-13--13-13-13--13-13-13-13-13-13--13-13-13-13---|
G|------------------------------------------------------|
D|------------------------------------------------------|A|------------------------------------------------------|
E|------------------------------------------------------|
G Em
E|-12-12-12--13-13-13--12-12-12-12-12-12\10--10-10-10\7-7-7---|
B|-13-13-13--13-13-13--13-13-13-13-13-13\12--12-12-12\8-8-8---|
G|------------------------------------------------------------|D|------------------------------------------------------------|
A|------------------------------------------------------------|
E|------------------------------------------------------------|
C Am F G
E|---------------1-1------3-3------------|
B|---------------1-1------3-3------------|
G|-0-0-2-2-------2-2------4-4--4-4-5-4---|
D|-0-0-2-2-----3--------5------5-5-5-5---|
A|---------------------------------------|...
tracking img