cifra pais e filhos

Páginas: 3 (506 palavras) Publicado: 1 de junho de 2014
Legião Urbana - Pais e Filhos

Tom: G
(Riff intro)

(1ª parte)

(Tocado na intro e na 1² estrofe)


E|--------------8-----5---7------7----|
B|-1--3--5----------------------------|G|---------0-------0----0------0---0--|
D|-----------0--------4------0--------|
A|-0--2--3----------------------------|
E|------------------------------------|


(Riff intro)

Estátuas e cofres
Eparedes pintadas
Ninguém sabe
O que aconteceu...

Ela se jogou da janela
Do quinto andar
Nada é fácil de entender...

(Dedilhado - 2ª parte)E|-3----3---3---3----3---3----0--0--0----2---2---2-----|
B|-1--1---1---1-0--0---0---0--1-1--1--1--3-3---3--3----|
G|-2------------0-------------0----------4-------------|
D|-3------------2-------------2----------4-------------|A|----------------------------3----------2-------------|
E|-----------------------------------------------------|


(Dedilhado - 3ª parte)


E|-3---3---3---3----3---3----5---5---5---5---5--5------|B|-1-1---1---1-1--1---1---1--3--3--3---3-3-3---3--3----|
G|-0-----------0-------------2-----------2-------------|
D|-2-----------2-------------0-----------0-------------|A|-0-----------0---------------------------------------|
E|-----------------------------------------------------|


F9 Em C
Dorme agora
Bm Am7
Uuummhum!

É só o vento
D
Lá fora...
C D
Querocolo!
G
Vou fugir de casa
C D
Posso dormir aqui
G
Com vocês
C D
Estou com medo
G
Tive um pesadelo
C D
Só vou voltar
G
Depois das três...

(C D)

F9 EmC
Meu filho vai ter
Bm
Nome de santo
Am7
Uummhum!

Quero o nome
D
Mais bonito

G C
É preciso amar as pessoas
Em C
Como se nãohouvesse amanhã
G C
Por que se você parar
Em7
Prá pensar
C G
Na verdade não há...

G
Me diz por que que o céu é azul

Explica a grande...
Ler documento completo

Por favor, assinar para o acesso.

Estes textos também podem ser interessantes

  • Pais e filhos
  • PAIS E FILHOS
  • Pais e filhos
  • Pais e filhos
  • Pais e filhos
  • Pais e filhos
  • pais e filhos
  • Pais e Filhos em Psicoterapia

Seja um membro do Trabalhos Feitos

CADASTRE-SE AGORA!