Ciências

Páginas: 2 (255 palavras) Publicado: 1 de outubro de 2012
Ticket to Ride

-|----0-------------0-------------------------
-|--------2-----0-----------------------------
-|------------2--------2-----------------------|--------------------------------------------
-|-0------------------------------------------
-|--------------------------------------------

Verse:

A
I think I'm gonnabe sad I think it's today, yeah
Bm E
The girl that's driving me mad is going away
F#m D F#m G
She's got a ticket to ride she's got a ticket to ride
F#m EA
She's got a ticket to ride but she don't care.
(Intro)
A
She said that linving with me was bringing her down, yeah !
Bm E
For she would never be free when Iwas around
F#m D F#m G
She's got a ticket to ride she's got a ticket to ride
F#m E A
She's got a ticket to ride but she don't care
D
I don't know why she'sriding so high
E
She ought to think twice she ought to do it right by me
D
Before she gets to saying goodbye
E
She ought to think twice she ought to do it rightby me

Little solo:
-|----------------------10------b(14)12--10--12----
-|--b(12)10--8-----/12------12----------------------|--------------9----------------------------------
-|-------------------------------------------------
-|-------------------------------------------------
-|-------------------------------------------------the verse again:

A
I think I'm gonna be sad I think it's today, yeah
Bm E
The girl that's driving me mad is going away
F#m D F#m G
She's got a ticket toride she's got a ticket to ride
F#m E A
She's got a ticket to ride but she don't care.
A
My baby don't care
A
My baby don't care
A
My baby don't care
Ler documento completo

Por favor, assinar para o acesso.

Estes textos também podem ser interessantes

  • ciências ciências
  • ciências
  • O que é ciência
  • CIENCIAS
  • ciencias
  • ciencias
  • Ciencias
  • Ciencias

Seja um membro do Trabalhos Feitos

CADASTRE-SE AGORA!