Trabalho

Disponível somente no TrabalhosFeitos
  • Páginas : 5 (1033 palavras )
  • Download(s) : 0
  • Publicado : 12 de setembro de 2012
Ler documento completo
Amostra do texto
Arde Outra Vez
Thalles Roberto

Tom: E

Intro: F#m7(9) C#m7(9)

F#m7(9)
E|-x-x---x---x-x--4p2-4--2--4-2----4---4---
B|-x-x---x---x-x--2---2--2--2-2----2---2---
G|-x-x---x---x-x--2---2--2--2-2----2---2---D|-x-x---x---x-x--2-------------x----------
A|-x-x---x---x-x----------------x----------
E|-x-x---x---x-x--2-------------x--2-----2-

E|-4--4---4---4p2-4--2--4-2--4-4h5-4-------
B|-2--2---2---2---2--2--2-2--2-2---2--5----
G|-2--2---2---2---2--2--2-2--2-2---2--2----D|-2--2---2---2--------------2-2-----------
A|-----------------------------------------
E|------2-----2--------------2-2---2--2----

C#m7(9)
E|-----------------------------------------
B|-4--4--x---4--4-----4--4-----4-----------
G|-4--4--x---4--4-----4--4-----4-----------D|-x--x--x-x-x--x-----x--x-----x-----------
A|-4-----x-4-------4--4--4--4--------------
E|-----------------------------------------

C#m7(9)
E|-----------------------------------------
B|-4--4--x---------------------------------
G|-4--4--x---------------------------------D|-x--x--x-x-2----/6---2h4/5\4p2-----------
A|-4-----x-4---4/----x---------------------
E|-----------------------------------------

Primeira Parte:
F#m7
Eu não quero mais viver
C#m7(9)
Longe da tua presença, meu SenhorHoje, quero voltar, voltar ao início de tudo
F#m7
De quando eu era feliz
C#m7(9)
Sentia a Tua presença, caminhava ali, no seu jardim

Te encontrava todo dia
F#m7
Mas me perdi, Senhor, no caminharTentei andar sozinho na aventura
C#m7(9)
Dessa vida foi só ilusão

Confesso que andei perdido, sim,
F#m7(9)
Mas, hoje, eu Te devolvo um coração

Arrependido de tudo o que fez
C#m7(9)Quero voltar, Senhor, para os Teus rios

Voltar, Senhor, para os Teus rios.
F#m7
E|------------------------2--2---2---------
B|------------------------2--2---2---------
G|-2----2--x--x-x-------2-2--2---2---------
D|-2----2--x--x-x-------2-2--2---2---------A|-4--4-4--x--x-x--4--4-4------------------
E|-2—-0-2--x--x-x--2--0-2------4-----------

C#m7(9)
E|------------------------2--2---2---------
B|-4----4---------------4-4--4---4---------
G|-4----4--x--x-x-------4-4--4---4---------
D|-2----2--x--x-x-------2-2--2---2---------A|-4--4-4--x--x-x--4--4-4------4-----------
E|-----------------------------------------

Refrão 2x:
A7M(9) G#m7(13-) F#m7(11)
Me molha, me lava, me ensina
A7M(9) G#m7(13-)
Me inspira e arde outra vez
F#m7(11)...
tracking img