Otherside

Disponível somente no TrabalhosFeitos
  • Páginas : 2 (354 palavras )
  • Download(s) : 0
  • Publicado : 14 de abril de 2013
Ler documento completo
Amostra do texto
(riff 1)
E|---------------------------|
B|---------------------------|
G|---------------------------|
D|-----------7b9-7-5---------|
A|-5h7-7-5-7---------7-7~----|E|---------------------------|


E|---------------------------|
B|---------------------------|
G|---------------------------|
D|---------------------------|
A|-5h7-7-5-7-----------------|
E|-----------5h7-5-3-0-------|(riff 2)
E|---------------------------|
B|-----------10b12-10-8------|
G|-7h9-9-7-9------------9-9--|
D|---------------------------|
A|---------------------------|E|---------------------------|

E|---------------------------|
B|---------------------------|
G|-7h9-9-7-9-----------------|
D|-----------7h9-7-----------|
A|-----------------10-7~-----|
E|---------------------------|A
I've been sitting here for way too long
E (riff 1)
It's time that I was moving on
A
I know that there's a better way
E (riff 1)
I think I'm going to make achange
G A
So come along now to where I'm going

E C A
Take me to the other side


D E C A D
'Cause I need something better
EC A
Take me to the other side
D E C A D
'Cause I want to live forever

(riff 3)
E|---------------------------|B|---------------------------|
G|---------------------------|
D|---5---5---5-4-5-----------|
A|-7-7-7-7-7-7-5-7-----------|
E|-5---5---5-----------------|


A
One thing that's for sure I knowE (riff 3)
This won't be an easy road
A
Let me ask before I leave
E (riff 1)
Won't you come along with me


E C A
Take me to the other side
DE C A D
'Cause I need something better
E C A
Take me to the other side
D E C A D
'Cause I want to live forever...
tracking img