Musica find me

Disponível somente no TrabalhosFeitos
  • Páginas : 3 (647 palavras )
  • Download(s) : 0
  • Publicado : 11 de setembro de 2012
Ler documento completo
Amostra do texto
Find Me

Boyce Avenue

Tom: C#

Afinação: C# G# C# F# A# C#

^ = hammer on
P = pull off
X = mute

Intro:

----0------0--------------------0------0-------------0^2--|---0-0----0-0-----3------3-----0-0----0-0-----3---------0-|
--0---0------0---0-0----0-0---0---0------0---0-0----0-----|
---------7------4---4--4---4---------7------4---4--4------|-3---------------------------3----------------------------|
--------5------0------2-------------5------0------0-------|

----0------0--------------------0------0-----------|
---0-0----0-0-----3------3-----0-0----0-0-----3----|--0---0------0---0-0----0-0---0---0------0---0-0---|
---------7------4---4--4---4---------7------4---4--|
-3---------------------------3-------------------5-|--------5------0------2-------------5------0-------|

Verse:

----0----0--------------0----0-----------|
---0----0-----3----3---0----0-----3----3-|
--0----------0----0---0----------0----0--|-------7----4----4---------7----4----4---|
-3-------------------3-------------------|
------5----0----2---------5----0----0----|

----0----0--------------0----0-------------------|
---0----0-----3----3---0----0-----3--------------|--0----------0----0---0----------0---4-2-0-------|
-------7----4----4---------7----4----------4-2-0-|
-3-------------------3---------------------------|------5----0----2---------5----0-----------------|

Pre-chorus:

----0------0--------------------0------0------------------|
---0-0----0-0-----3------3-----0-0----0-0-----3------3----|--0---0------0---0-0----0-0---0---0------0---0-0----0-0---|
---------7------4---4--4---4---------7------4---4--4---4--|
-3---------------------------3----------------------------|
--------5------0------2-------------5------0------0-------|----0------0-----------------------0---------0-|
---0-0----0-0-----3------3--------0---------7--|
--0---0------0---0-0----0-0----0-0-------0-0---|
---------7------4---4--4---4--2-2-------4-4----|...
tracking img