Lutar Pelo Que Meu

Disponível somente no TrabalhosFeitos
  • Páginas : 4 (994 palavras )
  • Download(s) : 0
  • Publicado : 13 de março de 2015
Ler documento completo
Amostra do texto
Lutar pelo que é meu

Tom: G#


Intro (D#9 A#m4/F C#9)
E|-----6-----6-----4-----4----|
B|------6-----6-----4-----4---|
G|-------8-----8-----6-----6--|
D|---8------8-----6-----6-----| (2X)A|--6------8-----4-----4------|
E|----------------------------|




D#9 A#m4/F C#9
E|-----6-----6-----4-----4----|
B|------6-----6-----4-----4---|
G|-------8-----8-----6-----6--|D|---8------8-----6-----6-----| (2X)
A|--6------8-----4-----4------|
E|----------------------------|

A gente passa entender melhor a vida
Quando encontra o verdadeiro amor
Cada escolha uma renuncia isso é a vidaEstou lutando pra me recompor


D#9 A#m4/F C#9
E|---------------------------------|
B|----6------6-----4-----4---------|
G|-----8------8-----6-----6--------|
D|--8---8--8---8--6--6--6--6-------|(2X)
A|-6------8------4-----4-----------|
E|---------------------------------|

De qualquer jeito seu sorriso vai ser meu raio de sol
De qualquer jeito seu sorriso vai ser meu raio de sol

Antes deentrar no refrão, arraste a palheta na corda

Refrão (F5 G#5 C5 A#5)*
(F5 G#5 C5 D#5)*


E|-------------------------------------6-|
B|------------4------4------------4-----6|G|---------5---5--3---3---------5----8---|
D|-3---6---5------3-----3---6---5----8---|
A|-3---6---3------1-----3---6---3----6---|
E|-1---4----------------1---4------------|

O melhor presente Deus me deu
a vida meensinou a lutar pelo que é meu!
O melhor presente Deus me deu
a vida me ensinou a lutar pelo que é meu!



D#9 A#5/F C#5
E|---------------------4--44-----|
B|---------------------4--44-----|G|--8-----8--8--88--6------------|
D|--8-----8--8--88--6------------| (abafadando e soltando)
A|--6-----8---------4------------|
E|-------------------------------|

Então deixa eu te beijar até vocêsentir vontade de tirar a roupa,
Deixa eu aconpanhar esse instinto de aventura de menina solta!


D#9 A#m4/F C#9
E|----------------------------------|
B|----6------6-----4-----4----------|...
tracking img