Joanava

Disponível somente no TrabalhosFeitos
  • Páginas : 2 (484 palavras )
  • Download(s) : 0
  • Publicado : 22 de abril de 2013
Ler documento completo
Amostra do texto
Fluorescent Adolescent
Arctic Monkeys[->0]
[->1]Compositor: Bruno Franke Goularte
Tom: E

Intro: E C#m F#m B
E|---------------------------|
B|---------------------------|G|---------------------------|
D|---------------------------|
A|---------------2-4-4-------|
E|-0-0--0-2-4----------------|

E|---------------------------|
B|---------------------------|G|---------------------------|
D|---------------------------|
A|-4-2-------------4--2-2----|
E|-----2-2-2-----2-----------|

E|---------------------------|
B|---------------------------|G|---------------------------|
D|---------------------------|
A|---2-0---------------------|
E|--------4-2--0-------------|

E
You used to get it in your fishnetsC#m
Now you only get it in your night dress
B F#m
Discarded all the naughty nights for niceness
B
Landed in a very commoncrisis
E
Everything's in order in a black hole
B C#m
Nothing seems as pretty as the past though
F#m
TheBloody Mary's lacking her Tabasco
B
Remember when you used to be a rascal?

F#m
Oh the boy's a slag
B
The best you ever hadF#m
The best you ever had
B F#m
Is just a memory and those dreams
B
But as daft as they seem
F#m
As daft as theyseem
A
My love when you dream them up...

E
Flicking through a little book of sex tips
B C#m
Remember whenthe boys were all electric?
F#m
Now when she's told she's gonna get it
B
I'm guessing that she'd rather just forget it...
tracking img