Euuuuuuuuuuuuu

Disponível somente no TrabalhosFeitos
  • Páginas : 2 (486 palavras )
  • Download(s) : 0
  • Publicado : 14 de outubro de 2012
Ler documento completo
Amostra do texto
Tabbed by: ZoSoStimmel
Email: BuckeyeStimmel61@columbus.rr.com

Tuning: EADGBe

h - hammer on
p - pull off
b - bend string up
/ - slide up
\ - slide downx - play 'note' with heavy damping


Intro:
Strum a few Times Strum a few Times
^V^ ^V^
e---------------------3-------------------3---|B---------------------3-------------------3---|
G---------------------0-------0-----------0---|
D-------------0--2----0----2-----2--------0---| * 2
A------0h2------------2-------------------2---|E---3-----------------x-------------------3---|

Strum a few Times Strum a few Times
^V^ ^V^e---------------------3--------------------------------3---|
B---------------------3--------------------------------3---|
G---------------------0--------------------------------2---|D-------------0--2----0------2-----0-------------------2---| * 2
A------0h2------------2------------------2-------0-----0---|
E---3-----------------x--------------------------------0---|




e---3---|
B---3---|
G---0---|D---0---| ( Guitar 1 continues to play over the solo )
A---2---|
E---3---|




Solo: ( 2nd Guitar )

e----------------------------------------------------------|B----------3---5--------3----------------------------------|
G-----2/4-----------4--------4----2---0--------------------|
D------------------------------------------0---------0---0-|A-----------------------------------------------1/2--------|
E----------------------------------------------------------|


e----3/5/3-------------------------------------------------|B----3/5/3----3/5/3----3----3/5/3--------------------------|
G-------------2/4/2----0----2/4/2---2p0----2/4-------------|
D------------------------------------------3/5-------------|
A----------------------------------------------------------|...
tracking img