Dfbdbdf

Disponível somente no TrabalhosFeitos
  • Páginas : 2 (458 palavras )
  • Download(s) : 0
  • Publicado : 19 de outubro de 2012
Ler documento completo
Amostra do texto
Anna Molly.

Gtr I
Intro/Chorus
|--8----6----4------------------8---6----4----1----3-||--8----8----4------------------8---8----4----1----3-|
|--8----8----5---8/-10-10-10----8---8----5----1----4-|
|-10----8----6---8/-10-10-10---10---8----6----3----3-||-10----6----6---6/--8--8--8---10---6----6----3----5-|
|--8---------4------------------8--------4----1----3-|

Gtr II
TP TP TP TP TPTP TP
|------------------------------------|
|---8----11--8----11--8-----11--8----|
|------------------------------------||------------------------------------|2nd time
|------------------------------------|
|------------------------------------|Prechorus
|-----------------------------------|
|-----------------------------------|
|--8--8--8--8--8\-7-----------------||-10-10-10-10-10\-8---8--8--8--8\-5-|
|--------------------10-10-10-10\-6-|
|-----------------------------------||--------------------------------------|
|--------------------------------------|
|--8--8--8--8--8--8--------------------|
|-10-10-10--8--8--8---8--8--8\-5--5-5--||--------------------10-10-10\-6--6-6--|
|--------------------------------------|

Verse * *|-----------------10---10-------8\-|
|---------11---------8-------------|
|----8-------8---------------------|
|-10---10------10----------6-6-----|...
tracking img