Cifras - bruno e marrone

Disponível somente no TrabalhosFeitos
  • Páginas : 14 (3441 palavras )
  • Download(s) : 0
  • Publicado : 24 de fevereiro de 2013
Ler documento completo
Amostra do texto
Bruno e Marrone
Bruno e Marrone - A Dama de Vermelho
Tom: C

C
Garçon olhe pelo espelho
F
A dama de vermelho
G
Que vai se levantar
F
Note que até a orquestra
G
Fica toda em festa
C
G
Quando ela sai para dançar
C
Em
Esta dama já me pertenceu
A7
E o culpado fui eu
Dm
Da separação
F
C
Hoje choro de ciúmes,
G
Ciúme até do perfume
C
Que ela deixa no salão
Dm
Garçonamigo
G
C
A7
Apague a luz da minha mesa
Dm
G
Eu não quero que ela note
C
Em mim tanta tristeza
Dm
G
Traga mais uma garrafa
C
A7
Hoje vou embriagar-me
Dm G
Quero dormir para não ver
C
Outro homem lhe abraçar

E

FINAL: C,D,G (INTRO)

Bruno e Marrone - A Solidão É Uma Ressaca
Tom: G
G
Hoje

Am
Bm
quando eu acordei
Am
G
Olhei pra mim e perguntei
E7
Am E7
Aonde foique eu me perdi
Am
Am/G#
Am/G
Sozinho eu saí da casa dela
Am/F#
D
Acho que briguei com ela
G (D D4 D)
Lembro que foi bem assim
G
Am
Bm
Página 1

Bruno e Marrone
Depois que brigamos fui embora
Am
G
E7
Am
Decidi naquela hora tomar uma pra esquecer
C
Cm
G
Coração apaixonado mais bandido
E7
Am
Encontrou outro ferido
D7
G
E era linda de morrer
D
Eu nem me lembro

EmComo foi que terminou
C
D
G
Se a gente fez amor ou só falou de solidão
D
Só sei que agora
Em
Eu estou tão dividido
C
D7
G
Acordei fiquei perdido com o coração na mão
(refrão)

D
Em
Tanta paixão loucura que não passa
C
D
G
Amor bandido e solidão é uma ressaca
(repete tudo)
(repete refrão 3x)
(G

Bm

Am

C

D

G)

Bruno e Marrone - Amor de Ping-Pong
Tom: A(intro) Bm7 E7 A

E |-0-0-10-9-7-5-7-7--5-7-5-7--7--5-7-9-7-5-|
(refrão 2x)

Bm7
E esse amor de ping-pong
E7
A A4 A
De pega-pega esconde-esconde
F#m7
Bm7
Paixão maluca proibida
E
A A4 A
E tão doída se fica longe
Eº Fº F#m7
Bm7
Eu não quis assim
E7
Ela também não
C#m
F#m7
Mas aconteceu , coisas do coração
Bm7
O seu olhar no meu
E7
O meu olhar no seu
A
Inocente paixão
Eº FºF#m7

Bm7
Página 2

Bruno e Marrone
Vem me dar um beijo
E7
Mata essa saudade
C#m
F#m7
Que já estava louco , louco de vontade
Bm7
De te amar de novo
E
A A4 A
Fazer do nosso sonho uma realidade.
runo e Marrone - Boate Azul
Tom: C
( Dm

G

C

Intro: Dm
F Dm E

GC
Am )

F

Dm

E

Am

A7

E|-1-1-1-0-1-0-1--------------0---0---0-----------|B|---------------1-0----0-1-3---3---3-------------|
G|----------------------------------------2/4 2---|
D|------------------------------------------------|
A|------------------------------------------------|
E|------------------------------------------------|
E|-------------------------------------0--------|
B|---0-1-3-1-3-1-3---------0-1-0-1-2-3----------|
G|-2---------------1/2-1-2----------------------|D|----------------------------------------------|
A|----------------------------------------------|
E|----------------------------------------------|
E|-1-0-1-0-1-3/5-3---------0---0---0-1/3-1----|
B|-------------------0-1-3---3---3------------|
G|--------------------------------------------|
D|--------------------------------------------|
A|--------------------------------------------|E|--------------------------------------------|
E|-----------------------4-5/7-5--------17------|
B|---0-1-3-1-3-1-3-5/6-5------------------------|
G|-2------------------------------------17------|
D|----------------------------------------------|
A|----------------------------------------0-----|
E|----------------------------------------------|
Primeira Parte:
Am
G
Doente de amor procureiremédio na vida noturna
F
E
Com a flor da noite em uma boate aqui na zona sul
Dm
Am
A dor do amor é com outro amor que a gente cura
E
Am A7
Vim curar a dor desse mal de amor na boate azul
Dm
Am
E quando a noite vai se agonizando no clarão da aurora
E
Am A7
Os integrantes da vida noturna se foram dormir
Dm
Am
E a dama da noite que estava comigo também foi embora
F
E
A...
tracking img