Apostila

Disponível somente no TrabalhosFeitos
  • Páginas : 9 (2227 palavras )
  • Download(s) : 0
  • Publicado : 25 de outubro de 2012
Ler documento completo
Amostra do texto
Eu Sou de Jesus
Lázaro

G -----4--7--4-----------------4--7--4--------------------------------------------------------------
D --5-----------5-----4--7--4--5--------------0-4-0-7-5---------------------------------------------
A -----------------5-----------------------5--------------------------------------------------------
E--------------------------------------------------------------------------------------------------
De Quem É?
Lázaro

G|--------------------------------------------------|
D|---------5-7-9-7-5-7------4-7---------------------|
A|7-7-7--7-------------5-5-------5-7-7--------------|
E|--------------------------------------------------|G|--------------------------------------------------|
D|--5-7-9-7-5-------4-7-----------------------------|
A|7------------5-5------5/7-------------------------|
E|-------------------------0-0--0-2-2--2-3-3--3-5---|

Introdução

O que são tablaturas?
Tablatura é uma forma de leitura musical em instrumentos de cordas comoviolão, guitarra e baixo. Diferente da partitura, que é a forma de transcrição completa da música e que exige um maior estudo, a tablatura é bem mais simples e é voltada para músicos iniciantes. Com a partitura um músico experiente que nunca tenha ouvido uma determinada música pode facilmente tocá-la e ela soará idêntica. Já com a tablatura é necessário porém que o músico conheça a música em questãopois terá informações como tempo da música e velocidade de cada nota mas sim apenas as cordas e trastes que devem ser pressionados. Além das notas a serem tocadas a tablatura também indica técnicas como bends, slides, hammer-ons, pull-offs, harmonicos e vibrato.
Lendo as tablaturas
O conceito básico da tablatura é apresentar no papel um conjunto de linhas que representam as cordas do instrumento.Sendo assim para uma guitarra ou violão comum você terá seis linhas, para um baixo de quatro cordas terá quatro linhas, para um baixo de cinco cordas cinco linhas, para uma guitarra de sete cordas sete linhas e assim por diante. Geralmente nos exemplos mostrados aqui usaremos tablaturas de seis linhas para guitarra mas o principio é o mesmo para qualquer quantidade de cordas.
Uma tablatura vaziade guitarra ou violão apresenta-se da seguinte forma:
E------------------------------------------------------
B------------------------------------------------------
G------------------------------------------------------
D------------------------------------------------------
A------------------------------------------------------
E------------------------------------------------------
A linha debaixo representa a corda mais grossa (mi mais grossa) e a linha de cima representa a corda mais fina (mi mais fina). De cima para baixo as linhas representam as cordas mi, si, sol, re, la, mi.
Uma tablatura vazia de baixo (quatro cordas) apresenta-se da seguinte forma:
G------------------------------------------------------
D------------------------------------------------------A------------------------------------------------------
E------------------------------------------------------
A linha de baixo representa a corda mais grossa (mi) e a linha de cima representa a corda mais fina (sol). De cima para baixo as linhas representam as cordas sol, ré, lá, mi.
Números escritos nas linhas indicam em que traste as respectivas cordas devem ser apertadas ao serem feridas. Número 0 indica cordasolta. As notas devem ser lidas da esquerda para a direita.
E------------------------------------------------------
B------------------------------------------------------
G------------------------------------------------------
D------------------------------------------------------
A------------------------------------------------------
E---0--1--2--3-----------------------------------------
O...
tracking img