Acesse

Disponível somente no TrabalhosFeitos
  • Páginas : 10 (2289 palavras )
  • Download(s) : 0
  • Publicado : 3 de outubro de 2012
Ler documento completo
Amostra do texto
So Far Away
Avenged Sevenfold

Tom: G

Primeira Parte:
Em
Never feared for anything,
Em
Never shamed but never free
G D
A light that healed a broken heart
Bm11 C
With all that it could

Em
Live the life so endlessly
Em9 Em
Saw beyond what others see
G D
I tried to heal your brokenheart
Bm11 C
With all that I could

C
Will you stay
D
Will you stay away forever?

Primeira parte:
Em
E|-0---0-0--0-0--0-0-0-0-------------------
B|-0---0-0--0-0--0-0-0-0-------------------
G|-0---0-0--0-0--0-0-0-0-------------------
D|-2---2-2--2-2--2-2-2-2-------------------
A|-2---2-2--2-2--2-2-2-2-------------------
E|-0---0-0--0-0--0-0-0-0-------------------↓ ↓ ↑ ↑ ↓ ↓ ↑ ↓ ↑

G D Bm11 C
E|-3-3-3--2-2-2-2--0-0-0-0-0--0---0-0-0-0--
B|-3-3-3--3-3-3-3--3-3-3-3-1--1p3-3-1-1-1--
G|-0-0-0--2-2-2-2--4-4-4-4-0--0---0-0-0-0--
D|-0-0-0--0-0-0-0--4-4-4-4-2--2---2-2-2-2--
A|-2-2-2-----------2-2-2-2-3--3---3-3-3-3--
E|-3-3-3-----------------------------------
↓ ↓ ↑ ↓ ↓ ↑ ↑ ↓ ↓ ↓ ↑ ↓ ↑ ↓ ↑ ↓ ↑

C D9(11)E|-0-0-0-0--2-2-2-2--2-2-------------------
B|-1-1-1-1--3-3-3-3--3-3-------------------
G|-0-0-0-0--2-2-2-2--2-2-------------------
D|-2-2-2-2--0-0-0-0--0-0-------------------
A|-3-3-3-3---------------------------------
E|-----------------------------------------
↓ ↓ ↓ ↓ ↓ ↓ ↑ ↑ ↓ ↑


Refrão:
Em G
How do I live without the ones I love?
AmG D
Time still turns the pages of the book, it's burned
Em G
Place and time always on my mind
Am C D
I have so much to say but you're so far away

Refrão:
Em
E|-0-0--0-0-0---0-0-0-0--------------------
B|-0-0--0-0-0---0-0-0-0--------------------
G|-0-0--0-0-0---0-0-0-0--------------------D|-2-2--2-2-2---2-2-2-2--------------------
A|-2-2--2-2-2---2-2-2-2--------------------
E|-0-0--0-0-0---0-0-0-0--------------------
↓ ↓ ↑ ↑ ↓ ↓ ↑ ↓ ↑

G
E|-3-3--3-3-3---3-3-3-3--------------------
B|-3-3--3-3-3---3-3-3-3--------------------
G|-0-0--0-0-0---0-0-0-0--------------------
D|-0-0--0-0-0---0-0-0-0--------------------
A|-2-2--2-2-2---2-2-2-2--------------------E|-3-3--3-3-3---3-3-3-3--------------------
↓ ↓ ↑ ↑ ↓ ↓ ↑ ↓ ↑

Am
E|-0-0--0-0-0---0-0-0-0--------------------
B|-1-1--1-1-1---1-1-1-1--------------------
G|-2-2--2-2-2---2-2-2-2--------------------
D|-2-2--2-2-2---2-2-2-2--------------------
A|-0-0--0-0-0---0-0-0-0--------------------
E|-----------------------------------------
↓ ↓ ↑ ↑ ↓ ↓ ↑ ↓ ↑

G DE|-3-3--2-2-2---2-2-2-2--------------------
B|-3-3--3-3-3---3-3-3-3--------------------
G|-0-0--2-2-2---2-2-2-2--------------------
D|-0-0--0-0-0---0-0-0-0--------------------
A|-2-2-------------------------------------
E|-3-3-------------------------------------
↓ ↓ ↓ ↑ ↓ ↓ ↑ ↓ ↑

(variação)
C D
E|-0-0--2-2---2-2-2-2----------------------
B|-1-1--3-3---3-3-3-3----------------------G|-0-0--2-2---2-2-2-2----------------------
D|-2-2--0-0---0-0-0-0----------------------
A|-3-3-------------------------------------
E|-----------------------------------------
↓ ↓ ↓ ↑ ↓ ↑ ↓ ↑

(Guitarra)
E|-----------------------------------------
B|-----------------------------------------
G|-9--7/9\7-------------7------------------
D|-----------9\7---7/5---------------------A|-7--5/7\5-------------5------------------
E|-----------7\5---5/3---------------------

E|-----------------------------------------
B|-----------------------------------------
G|-9--7/9\7--------------------------------
D|-x--x------9/12\7---7/9/10--12-----------
A|-7--5/7\5--x-----------------------------
E|-----------7/12\5---5/7/8---10-----------



Primeira Parte - com variação na letra:
Em
Plans of what our...
tracking img